0
SECTION
2
HEADER
9
$INSUNITS
70
4
9
$ACADVER
1
AC1014
9
$HANDSEED
5
FFFF
0
ENDSEC
0
SECTION
2
TABLES
0
TABLE
2
VPORT
5
8
100
AcDbSymbolTable
0
ENDTAB
0
TABLE
2
LTYPE
5
5
100
AcDbSymbolTable
0
LTYPE
5
14
100
AcDbSymbolTableRecord
100
AcDbLinetypeTableRecord
2
BYBLOCK
70
0
0
LTYPE
5
15
100
AcDbSymbolTableRecord
100
AcDbLinetypeTableRecord
2
BYLAYER
70
0
0
ENDTAB
0
TABLE
2
LAYER
5
2
100
AcDbSymbolTable
70
2
0
LAYER
5
50
100
AcDbSymbolTableRecord
100
AcDbLayerTableRecord
2
0
70
0
6
CONTINUOUS
0
ENDTAB
0
TABLE
2
STYLE
5
3
100
AcDbSymbolTable
70
1
0
STYLE
5
11
100
AcDbSymbolTableRecord
100
AcDbTextStyleTableRecord
2
STANDARD
70
0
0
ENDTAB
0
TABLE
2
VIEW
5
6
100
AcDbSymbolTable
70
0
0
ENDTAB
0
TABLE
2
UCS
5
7
100
AcDbSymbolTable
70
0
0
ENDTAB
0
TABLE
2
APPID
5
9
100
AcDbSymbolTable
70
2
0
APPID
5
12
100
AcDbSymbolTableRecord
100
AcDbRegAppTableRecord
2
ACAD
70
0
0
ENDTAB
0
TABLE
2
DIMSTYLE
5
A
100
AcDbSymbolTable
70
1
0
ENDTAB
0
TABLE
2
BLOCK_RECORD
5
1
100
AcDbSymbolTable
70
1
0
BLOCK_RECORD
5
1F
100
AcDbSymbolTableRecord
100
AcDbBlockTableRecord
2
*MODEL_SPACE
0
BLOCK_RECORD
5
1B
100
AcDbSymbolTableRecord
100
AcDbBlockTableRecord
2
*PAPER_SPACE
0
ENDTAB
0
ENDSEC
0
SECTION
2
BLOCKS
0
BLOCK
5
20
100
AcDbEntity
100
AcDbBlockBegin
2
*MODEL_SPACE
0
ENDBLK
5
21
100
AcDbEntity
100
AcDbBlockEnd
0
BLOCK
5
1C
100
AcDbEntity
100
AcDbBlockBegin
2
*PAPER_SPACE
0
ENDBLK
5
1D
100
AcDbEntity
100
AcDbBlockEnd
0
ENDSEC
0
SECTION
2
ENTITIES
0
CIRCLE
5
100
100
AcDbEntity
8
0
100
AcDbCircle
10
-3.6082248300317588e-15
20
-30
30
0
40
1.5000000000000004
0
CIRCLE
5
101
100
AcDbEntity
8
0
100
AcDbCircle
10
3.0531133177191805e-15
20
27.000000000000011
30
0
40
1.5000000000000002
0
LINE
5
102
100
AcDbEntity
8
0
100
AcDbLine
10
3.0531133177191805e-15
20
27.000000000000011
30
0
11
-3.6082248300317588e-15
21
-30
31
0
0
LWPOLYLINE
5
103
100
AcDbEntity
8
0
100
AcDbPolyline
90
14
70
1
43
0.0
10
44.499999999999993
20
10
10
-35
20
10
10
-35
20
30.500000000000025
10
74.499999999999972
20
30.499999999999964
42
-0.41421356237309659
10
79.500000000000014
20
25.499999999999954
10
79.5
20
-30.5
42
-0.41421356237309581
10
74.500000000000014
20
-35.5
10
-2.9289321881345298
20
-35.5
42
-0.19891236737965881
10
-6.4644660940672685
20
-34.035533905932731
10
-16.000000000000007
20
-24.499999999999993
10
-16.000000000000007
20
-10
10
44.5
20
-10
42
0.41421356237309581
10
49.500000000000014
20
-5
10
49.5
20
5.0000000000000044
42
0.41421356237309548
0
LINE
5
104
100
AcDbEntity
8
0
100
AcDbLine
10
49.5
20
7.4999999999999964
30
0
11
79.5
21
7.4999999999999956
31
0
0
LINE
5
105
100
AcDbEntity
8
0
100
AcDbLine
10
79.5
20
-7.5000000000000044
30
0
11
49.5
21
-7.5000000000000044
31
0
0
CIRCLE
5
106
100
AcDbEntity
8
0
100
AcDbCircle
10
54.5
20
10
30
0
40
1.5000000000000002
0
CIRCLE
5
107
100
AcDbEntity
8
0
100
AcDbCircle
10
69.5
20
10
30
0
40
1.4999999999999987
0
CIRCLE
5
108
100
AcDbEntity
8
0
100
AcDbCircle
10
69.5
20
-10
30
0
40
1.4999999999999987
0
CIRCLE
5
109
100
AcDbEntity
8
0
100
AcDbCircle
10
54.5
20
-10
30
0
40
1.5000000000000009
0
CIRCLE
5
110
100
AcDbEntity
8
0
100
AcDbCircle
10
-24.999999999999996
20
16.500000000000014
30
0
40
1.5000000000000002
0
ENDSEC
0
SECTION
2
OBJECTS
0
DICTIONARY
5
C
100
AcDbDictionary
3
ACAD_GROUP
350
D
3
ACAD_MLINESTYLE
350
17
0
DICTIONARY
5
D
100
AcDbDictionary
0
DICTIONARY
5
1A
330
C
100
AcDbDictionary
0
DICTIONARY
5
17
100
AcDbDictionary
0
ENDSEC
0
EOF
