0
SECTION
2
HEADER
9
$INSUNITS
70
4
9
$ACADVER
1
AC1014
9
$HANDSEED
5
FFFF
0
ENDSEC
0
SECTION
2
TABLES
0
TABLE
2
VPORT
5
8
100
AcDbSymbolTable
0
ENDTAB
0
TABLE
2
LTYPE
5
5
100
AcDbSymbolTable
0
LTYPE
5
14
100
AcDbSymbolTableRecord
100
AcDbLinetypeTableRecord
2
BYBLOCK
70
0
0
LTYPE
5
15
100
AcDbSymbolTableRecord
100
AcDbLinetypeTableRecord
2
BYLAYER
70
0
0
ENDTAB
0
TABLE
2
LAYER
5
2
100
AcDbSymbolTable
70
2
0
LAYER
5
50
100
AcDbSymbolTableRecord
100
AcDbLayerTableRecord
2
0
70
0
6
CONTINUOUS
0
ENDTAB
0
TABLE
2
STYLE
5
3
100
AcDbSymbolTable
70
1
0
STYLE
5
11
100
AcDbSymbolTableRecord
100
AcDbTextStyleTableRecord
2
STANDARD
70
0
0
ENDTAB
0
TABLE
2
VIEW
5
6
100
AcDbSymbolTable
70
0
0
ENDTAB
0
TABLE
2
UCS
5
7
100
AcDbSymbolTable
70
0
0
ENDTAB
0
TABLE
2
APPID
5
9
100
AcDbSymbolTable
70
2
0
APPID
5
12
100
AcDbSymbolTableRecord
100
AcDbRegAppTableRecord
2
ACAD
70
0
0
ENDTAB
0
TABLE
2
DIMSTYLE
5
A
100
AcDbSymbolTable
70
1
0
ENDTAB
0
TABLE
2
BLOCK_RECORD
5
1
100
AcDbSymbolTable
70
1
0
BLOCK_RECORD
5
1F
100
AcDbSymbolTableRecord
100
AcDbBlockTableRecord
2
*MODEL_SPACE
0
BLOCK_RECORD
5
1B
100
AcDbSymbolTableRecord
100
AcDbBlockTableRecord
2
*PAPER_SPACE
0
ENDTAB
0
ENDSEC
0
SECTION
2
BLOCKS
0
BLOCK
5
20
100
AcDbEntity
100
AcDbBlockBegin
2
*MODEL_SPACE
0
ENDBLK
5
21
100
AcDbEntity
100
AcDbBlockEnd
0
BLOCK
5
1C
100
AcDbEntity
100
AcDbBlockBegin
2
*PAPER_SPACE
0
ENDBLK
5
1D
100
AcDbEntity
100
AcDbBlockEnd
0
ENDSEC
0
SECTION
2
ENTITIES
0
CIRCLE
5
100
100
AcDbEntity
8
0
100
AcDbCircle
10
403.00000000000006
20
45
30
0
40
3.5000000000000004
0
LWPOLYLINE
5
101
100
AcDbEntity
8
0
100
AcDbPolyline
90
4
70
1
43
0.0
10
0
20
0
10
483.00000000000006
20
0
10
483.00000000000006
20
89
10
0
20
88.999999999999972
0
CIRCLE
5
102
100
AcDbEntity
8
0
100
AcDbCircle
10
80
20
30
30
0
40
3.5000000000000004
0
CIRCLE
5
103
100
AcDbEntity
8
0
100
AcDbCircle
10
55
20
45
30
0
40
8
0
CIRCLE
5
104
100
AcDbEntity
8
0
100
AcDbCircle
10
250
20
30
30
0
40
3.5000000000000004
0
CIRCLE
5
105
100
AcDbEntity
8
0
100
AcDbCircle
10
410.50000000000011
20
32.009618943233448
30
0
40
0.5
0
CIRCLE
5
106
100
AcDbEntity
8
0
100
AcDbCircle
10
411.81677878438722
20
32.864745084375826
30
0
40
0.49999999999999994
0
CIRCLE
5
107
100
AcDbEntity
8
0
100
AcDbCircle
10
413.036959095383
20
33.852827617839125
30
0
40
0.5
0
CIRCLE
5
108
100
AcDbEntity
8
0
100
AcDbCircle
10
414.14717238216099
20
34.963040904617174
30
0
40
0.49999999999999994
0
CIRCLE
5
109
100
AcDbEntity
8
0
100
AcDbCircle
10
415.13525491562433
20
36.183221215612953
30
0
40
0.5
0
CIRCLE
5
110
100
AcDbEntity
8
0
100
AcDbCircle
10
415.99038105676669
20
37.500000000000057
30
0
40
0.5
0
CIRCLE
5
111
100
AcDbEntity
8
0
100
AcDbCircle
10
416.70318186463908
20
38.898950353863057
30
0
40
0.49999999999999994
0
CIRCLE
5
112
100
AcDbEntity
8
0
100
AcDbCircle
10
417.26584774442733
20
40.364745084375862
30
0
40
0.5
0
CIRCLE
5
113
100
AcDbEntity
8
0
100
AcDbCircle
10
417.6722140110071
20
41.881324637733684
30
0
40
0.5
0
CIRCLE
5
114
100
AcDbEntity
8
0
100
AcDbCircle
10
417.9178284305242
20
43.432073050985274
30
0
40
0.5
0
CIRCLE
5
115
100
AcDbEntity
8
0
100
AcDbCircle
10
418.00000000000006
20
45.000000000000078
30
0
40
0.49999999999999994
0
CIRCLE
5
116
100
AcDbEntity
8
0
100
AcDbCircle
10
417.9178284305242
20
46.56792694901489
30
0
40
0.49999999999999994
0
CIRCLE
5
117
100
AcDbEntity
8
0
100
AcDbCircle
10
417.6722140110071
20
48.118675362266465
30
0
40
0.5
0
CIRCLE
5
118
100
AcDbEntity
8
0
100
AcDbCircle
10
417.26584774442733
20
49.635254915624287
30
0
40
0.49999999999999994
0
CIRCLE
5
119
100
AcDbEntity
8
0
100
AcDbCircle
10
416.70318186463902
20
51.101049646137078
30
0
40
0.5
0
CIRCLE
5
120
100
AcDbEntity
8
0
100
AcDbCircle
10
415.99038105676652
20
52.500000000000071
30
0
40
0.5
0
CIRCLE
5
121
100
AcDbEntity
8
0
100
AcDbCircle
10
415.13525491562416
20
53.816778784387161
30
0
40
0.5
0
CIRCLE
5
122
100
AcDbEntity
8
0
100
AcDbCircle
10
414.14717238216093
20
55.03695909538294
30
0
40
0.5
0
CIRCLE
5
123
100
AcDbEntity
8
0
100
AcDbCircle
10
413.03695909538283
20
56.147172382160974
30
0
40
0.49999999999999989
0
CIRCLE
5
124
100
AcDbEntity
8
0
100
AcDbCircle
10
411.81677878438705
20
57.135254915624259
30
0
40
0.5
0
CIRCLE
5
125
100
AcDbEntity
8
0
100
AcDbCircle
10
410.5
20
57.990381056766623
30
0
40
0.49999999999999994
0
CIRCLE
5
126
100
AcDbEntity
8
0
100
AcDbCircle
10
409.10104964613697
20
58.703181864639049
30
0
40
0.49999999999999994
0
CIRCLE
5
127
100
AcDbEntity
8
0
100
AcDbCircle
10
407.63525491562416
20
59.265847744427333
30
0
40
0.49999999999999994
0
CIRCLE
5
128
100
AcDbEntity
8
0
100
AcDbCircle
10
406.11867536226634
20
59.6722140110071
30
0
40
0.49999999999999994
0
CIRCLE
5
129
100
AcDbEntity
8
0
100
AcDbCircle
10
404.56792694901475
20
59.917828430524111
30
0
40
0.49999999999999989
0
CIRCLE
5
130
100
AcDbEntity
8
0
100
AcDbCircle
10
403
20
60.000000000000007
30
0
40
0.5
0
CIRCLE
5
131
100
AcDbEntity
8
0
100
AcDbCircle
10
401.43207305098514
20
59.917828430524096
30
0
40
0.50000000000000022
0
LWPOLYLINE
5
132
100
AcDbEntity
8
0
100
AcDbPolyline
90
8
70
1
43
0.0
10
377.95000000000005
20
50.000000000000078
10
378.04999999999984
20
50.000000000000156
42
-0.41421356237308116
10
379.54999999999995
20
48.499999999999957
10
379.54999999999995
20
41.500000000000092
42
-0.41421356237309503
10
378.05000000000001
20
40.000000000000107
10
377.95000000000005
20
40.000000000000085
42
-0.41421356237309159
10
376.4500000000001
20
41.499999999999986
10
376.45000000000005
20
48.500000000000092
42
-0.41421356237309503
0
LINE
5
133
100
AcDbEntity
8
0
100
AcDbLine
10
379.54999999999995
20
50.000000000000078
30
0
11
376.44999999999993
21
40.000000000000085
31
0
0
LINE
5
134
100
AcDbEntity
8
0
100
AcDbLine
10
376.45000000000005
20
50.000000000000078
30
0
11
379.54999999999995
21
40.000000000000078
31
0
0
LINE
5
135
100
AcDbEntity
8
0
100
AcDbLine
10
369.54999999999995
20
50.000000000000078
30
0
11
366.44999999999993
21
40.000000000000085
31
0
0
LWPOLYLINE
5
136
100
AcDbEntity
8
0
100
AcDbPolyline
90
8
70
1
43
0.0
10
367.95000000000005
20
40.000000000000085
42
-0.41421356237309159
10
366.4500000000001
20
41.499999999999986
10
366.45000000000005
20
48.500000000000092
42
-0.41421356237309503
10
367.95000000000005
20
50.000000000000078
10
368.04999999999984
20
50.000000000000156
42
-0.41421356237308116
10
369.54999999999995
20
48.499999999999957
10
369.54999999999995
20
41.500000000000092
42
-0.41421356237309503
10
368.05000000000001
20
40.000000000000107
0
LINE
5
137
100
AcDbEntity
8
0
100
AcDbLine
10
366.45000000000005
20
50.000000000000078
30
0
11
369.54999999999995
21
40.000000000000078
31
0
0
LINE
5
138
100
AcDbEntity
8
0
100
AcDbLine
10
359.54999999999995
20
50.000000000000078
30
0
11
356.44999999999993
21
40.000000000000085
31
0
0
LWPOLYLINE
5
139
100
AcDbEntity
8
0
100
AcDbPolyline
90
8
70
1
43
0.0
10
357.95000000000005
20
40.000000000000085
42
-0.41421356237309159
10
356.4500000000001
20
41.499999999999986
10
356.45000000000005
20
48.500000000000092
42
-0.41421356237309503
10
357.95000000000005
20
50.000000000000078
10
358.04999999999984
20
50.000000000000156
42
-0.41421356237308116
10
359.54999999999995
20
48.499999999999957
10
359.54999999999995
20
41.500000000000092
42
-0.41421356237309503
10
358.05000000000001
20
40.000000000000107
0
LINE
5
140
100
AcDbEntity
8
0
100
AcDbLine
10
356.45000000000005
20
50.000000000000078
30
0
11
359.54999999999995
21
40.000000000000078
31
0
0
LINE
5
141
100
AcDbEntity
8
0
100
AcDbLine
10
349.54999999999995
20
50.000000000000078
30
0
11
346.44999999999993
21
40.000000000000085
31
0
0
LWPOLYLINE
5
142
100
AcDbEntity
8
0
100
AcDbPolyline
90
8
70
1
43
0.0
10
347.95000000000005
20
40.000000000000085
42
-0.41421356237309159
10
346.4500000000001
20
41.499999999999986
10
346.45000000000005
20
48.500000000000092
42
-0.41421356237309503
10
347.95000000000005
20
50.000000000000078
10
348.04999999999984
20
50.000000000000156
42
-0.41421356237308116
10
349.54999999999995
20
48.499999999999957
10
349.54999999999995
20
41.500000000000092
42
-0.41421356237309503
10
348.05000000000001
20
40.000000000000107
0
LINE
5
143
100
AcDbEntity
8
0
100
AcDbLine
10
346.45000000000005
20
50.000000000000078
30
0
11
349.54999999999995
21
40.000000000000078
31
0
0
LINE
5
144
100
AcDbEntity
8
0
100
AcDbLine
10
339.54999999999995
20
50.000000000000078
30
0
11
336.44999999999993
21
40.000000000000085
31
0
0
LWPOLYLINE
5
145
100
AcDbEntity
8
0
100
AcDbPolyline
90
8
70
1
43
0.0
10
337.95000000000005
20
40.000000000000085
42
-0.41421356237309159
10
336.4500000000001
20
41.499999999999986
10
336.45000000000005
20
48.500000000000092
42
-0.41421356237309503
10
337.95000000000005
20
50.000000000000078
10
338.04999999999984
20
50.000000000000156
42
-0.41421356237308116
10
339.54999999999995
20
48.499999999999957
10
339.54999999999995
20
41.500000000000092
42
-0.41421356237309503
10
338.05000000000001
20
40.000000000000107
0
LINE
5
146
100
AcDbEntity
8
0
100
AcDbLine
10
336.45000000000005
20
50.000000000000078
30
0
11
339.54999999999995
21
40.000000000000078
31
0
0
LINE
5
147
100
AcDbEntity
8
0
100
AcDbLine
10
329.54999999999995
20
50.000000000000078
30
0
11
326.44999999999993
21
40.000000000000085
31
0
0
LWPOLYLINE
5
148
100
AcDbEntity
8
0
100
AcDbPolyline
90
8
70
1
43
0.0
10
327.95000000000005
20
40.000000000000085
42
-0.41421356237309159
10
326.4500000000001
20
41.499999999999986
10
326.45000000000005
20
48.500000000000092
42
-0.41421356237309503
10
327.95000000000005
20
50.000000000000078
10
328.04999999999984
20
50.000000000000156
42
-0.41421356237308116
10
329.54999999999995
20
48.499999999999957
10
329.54999999999995
20
41.500000000000092
42
-0.41421356237309503
10
328.05000000000001
20
40.000000000000107
0
LINE
5
149
100
AcDbEntity
8
0
100
AcDbLine
10
326.45000000000005
20
50.000000000000078
30
0
11
329.54999999999995
21
40.000000000000078
31
0
0
LINE
5
150
100
AcDbEntity
8
0
100
AcDbLine
10
319.54999999999995
20
50.000000000000078
30
0
11
316.44999999999993
21
40.000000000000085
31
0
0
LWPOLYLINE
5
151
100
AcDbEntity
8
0
100
AcDbPolyline
90
8
70
1
43
0.0
10
317.95000000000005
20
40.000000000000057
42
-0.41421356237309159
10
316.45000000000005
20
41.499999999999986
10
316.45000000000005
20
48.500000000000092
42
-0.41421356237309503
10
317.95000000000005
20
50.000000000000078
10
318.04999999999984
20
50.000000000000085
42
-0.41421356237308815
10
319.54999999999995
20
48.499999999999957
10
319.54999999999995
20
41.500000000000092
42
-0.41421356237310197
10
318.04999999999995
20
40.000000000000107
0
LINE
5
152
100
AcDbEntity
8
0
100
AcDbLine
10
316.45000000000005
20
50.000000000000078
30
0
11
319.54999999999995
21
40.000000000000078
31
0
0
LINE
5
153
100
AcDbEntity
8
0
100
AcDbLine
10
309.54999999999995
20
50.000000000000078
30
0
11
306.44999999999993
21
40.000000000000085
31
0
0
LWPOLYLINE
5
154
100
AcDbEntity
8
0
100
AcDbPolyline
90
8
70
1
43
0.0
10
307.95000000000005
20
40.000000000000057
42
-0.41421356237309159
10
306.45000000000005
20
41.499999999999986
10
306.45000000000005
20
48.500000000000092
42
-0.41421356237309503
10
307.95000000000005
20
50.000000000000078
10
308.04999999999984
20
50.000000000000085
42
-0.41421356237308815
10
309.54999999999995
20
48.499999999999957
10
309.54999999999995
20
41.500000000000092
42
-0.41421356237310197
10
308.04999999999995
20
40.000000000000107
0
LINE
5
155
100
AcDbEntity
8
0
100
AcDbLine
10
306.45000000000005
20
50.000000000000078
30
0
11
309.54999999999995
21
40.000000000000078
31
0
0
CIRCLE
5
156
100
AcDbEntity
8
0
100
AcDbCircle
10
399.88132463773354
20
59.672214011007071
30
0
40
0.49999999999999994
0
CIRCLE
5
157
100
AcDbEntity
8
0
100
AcDbCircle
10
398.36474508437573
20
59.26584774442729
30
0
40
0.49999999999999989
0
CIRCLE
5
158
100
AcDbEntity
8
0
100
AcDbCircle
10
396.89895035386292
20
58.703181864638992
30
0
40
0.49999999999999989
0
CIRCLE
5
159
100
AcDbEntity
8
0
100
AcDbCircle
10
395.5
20
57.990381056766552
30
0
40
0.5
0
CIRCLE
5
160
100
AcDbEntity
8
0
100
AcDbCircle
10
394.18322121561289
20
57.135254915624181
30
0
40
0.49999999999999989
0
CIRCLE
5
161
100
AcDbEntity
8
0
100
AcDbCircle
10
392.96304090461712
20
56.147172382160868
30
0
40
0.49999999999999994
0
CIRCLE
5
162
100
AcDbEntity
8
0
100
AcDbCircle
10
391.85282761783913
20
55.036959095382826
30
0
40
0.49999999999999989
0
CIRCLE
5
163
100
AcDbEntity
8
0
100
AcDbCircle
10
390.86474508437573
20
53.816778784387047
30
0
40
0.50000000000000022
0
CIRCLE
5
164
100
AcDbEntity
8
0
100
AcDbCircle
10
390.00961894323336
20
52.499999999999936
30
0
40
0.50000000000000022
0
CIRCLE
5
165
100
AcDbEntity
8
0
100
AcDbCircle
10
389.29681813536098
20
51.101049646136936
30
0
40
0.5
0
CIRCLE
5
166
100
AcDbEntity
8
0
100
AcDbCircle
10
388.73415225557272
20
49.635254915624145
30
0
40
0.5
0
CIRCLE
5
167
100
AcDbEntity
8
0
100
AcDbCircle
10
388.32778598899296
20
48.118675362266323
30
0
40
0.49999999999999994
0
LINE
5
168
100
AcDbEntity
8
0
100
AcDbLine
10
76.5
20
23.937822173508934
30
0
11
74.750000000000313
21
20.906733260263227
31
0
0
LINE
5
169
100
AcDbEntity
8
0
100
AcDbLine
10
80
20
30
30
0
11
81.172940326385003
21
32.031592239545247
31
0
0
LINE
5
170
100
AcDbEntity
8
0
100
AcDbLine
10
73.937822173508948
20
26.500000000000004
30
0
11
70.906733260263337
21
24.749999999999844
31
0
0
LINE
5
171
100
AcDbEntity
8
0
100
AcDbLine
10
73
20
30
30
0
11
69.499999999999886
21
29.999999999999968
31
0
0
LINE
5
172
100
AcDbEntity
8
0
100
AcDbLine
10
73.937822173508934
20
33.499999999999986
30
0
11
70.906733260263252
21
35.249999999999957
31
0
0
LINE
5
173
100
AcDbEntity
8
0
100
AcDbLine
10
76.5
20
36.062177826491066
30
0
11
74.749999999999886
21
39.093266739736634
31
0
0
LINE
5
174
100
AcDbEntity
8
0
100
AcDbLine
10
80
20
36.999999999999993
30
0
11
79.999999999999986
21
40.500000000000085
31
0
0
LINE
5
175
100
AcDbEntity
8
0
100
AcDbLine
10
83.499999999999972
20
36.062177826491066
30
0
11
85.25
21
39.093266739736706
31
0
0
LINE
5
176
100
AcDbEntity
8
0
100
AcDbLine
10
86.06217782649108
20
33.5
30
0
11
89.093266739736677
21
35.250000000000085
31
0
0
LINE
5
177
100
AcDbEntity
8
0
100
AcDbLine
10
87.000000000000014
20
29.999999999999993
30
0
11
90.500000000000114
21
30.000000000000039
31
0
0
LINE
5
178
100
AcDbEntity
8
0
100
AcDbLine
10
86.062177826491052
20
26.500000000000004
30
0
11
89.093266739736734
21
24.749999999999964
31
0
0
LINE
5
179
100
AcDbEntity
8
0
100
AcDbLine
10
93
20
30
30
0
11
89.499999999999886
21
29.999999999999968
31
0
0
LINE
5
180
100
AcDbEntity
8
0
100
AcDbLine
10
96.5
20
36.062177826491066
30
0
11
94.749999999999886
21
39.093266739736634
31
0
0
LINE
5
181
100
AcDbEntity
8
0
100
AcDbLine
10
93.93782217350892
20
33.499999999999986
30
0
11
90.906733260263266
21
35.249999999999957
31
0
0
LINE
5
182
100
AcDbEntity
8
0
100
AcDbLine
10
100
20
30
30
0
11
101.172940326385
21
32.031592239545247
31
0
0
LINE
5
183
100
AcDbEntity
8
0
100
AcDbLine
10
107.00000000000001
20
29.999999999999993
30
0
11
110.50000000000011
21
30.000000000000039
31
0
0
LINE
5
184
100
AcDbEntity
8
0
100
AcDbLine
10
106.06217782649108
20
33.5
30
0
11
109.09326673973668
21
35.250000000000085
31
0
0
LINE
5
185
100
AcDbEntity
8
0
100
AcDbLine
10
100
20
36.999999999999993
30
0
11
99.999999999999986
21
40.500000000000085
31
0
0
LINE
5
186
100
AcDbEntity
8
0
100
AcDbLine
10
96.5
20
23.937822173508934
30
0
11
94.750000000000341
21
20.906733260263227
31
0
0
LINE
5
187
100
AcDbEntity
8
0
100
AcDbLine
10
106.06217782649105
20
26.500000000000004
30
0
11
109.09326673973673
21
24.749999999999964
31
0
0
LINE
5
188
100
AcDbEntity
8
0
100
AcDbLine
10
93.937822173508948
20
26.500000000000004
30
0
11
90.906733260263337
21
24.749999999999844
31
0
0
CIRCLE
5
189
100
AcDbEntity
8
0
100
AcDbCircle
10
100
20
30
30
0
40
3.5000000000000004
0
LINE
5
190
100
AcDbEntity
8
0
100
AcDbLine
10
103.49999999999997
20
36.062177826491066
30
0
11
105.25
21
39.093266739736706
31
0
0
LINE
5
191
100
AcDbEntity
8
0
100
AcDbLine
10
113
20
30
30
0
11
109.49999999999989
21
29.999999999999968
31
0
0
LINE
5
192
100
AcDbEntity
8
0
100
AcDbLine
10
116.5
20
36.062177826491066
30
0
11
114.74999999999989
21
39.093266739736634
31
0
0
LINE
5
193
100
AcDbEntity
8
0
100
AcDbLine
10
113.93782217350892
20
33.499999999999986
30
0
11
110.90673326026327
21
35.249999999999957
31
0
0
LINE
5
194
100
AcDbEntity
8
0
100
AcDbLine
10
120
20
30
30
0
11
121.172940326385
21
32.031592239545247
31
0
0
LINE
5
195
100
AcDbEntity
8
0
100
AcDbLine
10
127.00000000000001
20
29.999999999999993
30
0
11
130.50000000000011
21
30.000000000000039
31
0
0
LINE
5
196
100
AcDbEntity
8
0
100
AcDbLine
10
126.06217782649108
20
33.5
30
0
11
129.09326673973669
21
35.250000000000085
31
0
0
LINE
5
197
100
AcDbEntity
8
0
100
AcDbLine
10
120
20
36.999999999999993
30
0
11
119.99999999999999
21
40.500000000000085
31
0
0
LINE
5
198
100
AcDbEntity
8
0
100
AcDbLine
10
116.5
20
23.937822173508934
30
0
11
114.75000000000034
21
20.906733260263227
31
0
0
LINE
5
199
100
AcDbEntity
8
0
100
AcDbLine
10
126.06217782649105
20
26.500000000000004
30
0
11
129.09326673973675
21
24.749999999999964
31
0
0
LINE
5
200
100
AcDbEntity
8
0
100
AcDbLine
10
113.93782217350895
20
26.500000000000004
30
0
11
110.90673326026334
21
24.749999999999844
31
0
0
CIRCLE
5
201
100
AcDbEntity
8
0
100
AcDbCircle
10
120
20
30
30
0
40
3.5000000000000004
0
LINE
5
202
100
AcDbEntity
8
0
100
AcDbLine
10
123.49999999999997
20
36.062177826491066
30
0
11
125.25
21
39.093266739736706
31
0
0
LINE
5
203
100
AcDbEntity
8
0
100
AcDbLine
10
133
20
30
30
0
11
129.49999999999989
21
29.999999999999968
31
0
0
LINE
5
204
100
AcDbEntity
8
0
100
AcDbLine
10
136.5
20
36.062177826491066
30
0
11
134.74999999999989
21
39.093266739736634
31
0
0
LINE
5
205
100
AcDbEntity
8
0
100
AcDbLine
10
133.93782217350892
20
33.499999999999986
30
0
11
130.90673326026325
21
35.249999999999957
31
0
0
LINE
5
206
100
AcDbEntity
8
0
100
AcDbLine
10
140
20
30
30
0
11
141.172940326385
21
32.031592239545247
31
0
0
LINE
5
207
100
AcDbEntity
8
0
100
AcDbLine
10
147
20
29.999999999999993
30
0
11
150.50000000000011
21
30.000000000000039
31
0
0
LINE
5
208
100
AcDbEntity
8
0
100
AcDbLine
10
146.06217782649108
20
33.5
30
0
11
149.09326673973669
21
35.250000000000085
31
0
0
LINE
5
209
100
AcDbEntity
8
0
100
AcDbLine
10
140
20
36.999999999999993
30
0
11
139.99999999999997
21
40.500000000000085
31
0
0
LINE
5
210
100
AcDbEntity
8
0
100
AcDbLine
10
136.5
20
23.937822173508934
30
0
11
134.75000000000034
21
20.906733260263227
31
0
0
LINE
5
211
100
AcDbEntity
8
0
100
AcDbLine
10
146.06217782649105
20
26.500000000000004
30
0
11
149.09326673973675
21
24.749999999999964
31
0
0
LINE
5
212
100
AcDbEntity
8
0
100
AcDbLine
10
133.93782217350895
20
26.500000000000004
30
0
11
130.90673326026334
21
24.749999999999844
31
0
0
CIRCLE
5
213
100
AcDbEntity
8
0
100
AcDbCircle
10
140
20
30
30
0
40
3.5000000000000004
0
LINE
5
214
100
AcDbEntity
8
0
100
AcDbLine
10
143.49999999999997
20
36.062177826491066
30
0
11
145.25
21
39.093266739736706
31
0
0
LINE
5
215
100
AcDbEntity
8
0
100
AcDbLine
10
153
20
30
30
0
11
149.49999999999989
21
29.999999999999968
31
0
0
LINE
5
216
100
AcDbEntity
8
0
100
AcDbLine
10
156.5
20
36.062177826491066
30
0
11
154.74999999999989
21
39.093266739736634
31
0
0
LINE
5
217
100
AcDbEntity
8
0
100
AcDbLine
10
153.93782217350892
20
33.499999999999986
30
0
11
150.90673326026325
21
35.249999999999957
31
0
0
LINE
5
218
100
AcDbEntity
8
0
100
AcDbLine
10
160
20
30
30
0
11
161.172940326385
21
32.031592239545247
31
0
0
LINE
5
219
100
AcDbEntity
8
0
100
AcDbLine
10
167.00000000000003
20
29.999999999999993
30
0
11
170.50000000000011
21
30.000000000000039
31
0
0
LINE
5
220
100
AcDbEntity
8
0
100
AcDbLine
10
166.06217782649108
20
33.5
30
0
11
169.09326673973666
21
35.250000000000085
31
0
0
LINE
5
221
100
AcDbEntity
8
0
100
AcDbLine
10
160
20
36.999999999999993
30
0
11
159.99999999999997
21
40.500000000000085
31
0
0
LINE
5
222
100
AcDbEntity
8
0
100
AcDbLine
10
156.5
20
23.937822173508934
30
0
11
154.75000000000034
21
20.906733260263227
31
0
0
LINE
5
223
100
AcDbEntity
8
0
100
AcDbLine
10
166.06217782649105
20
26.500000000000004
30
0
11
169.09326673973675
21
24.749999999999964
31
0
0
LINE
5
224
100
AcDbEntity
8
0
100
AcDbLine
10
153.93782217350895
20
26.500000000000004
30
0
11
150.90673326026334
21
24.749999999999844
31
0
0
CIRCLE
5
225
100
AcDbEntity
8
0
100
AcDbCircle
10
160
20
30
30
0
40
3.5000000000000004
0
LINE
5
226
100
AcDbEntity
8
0
100
AcDbLine
10
163.49999999999997
20
36.062177826491066
30
0
11
165.25
21
39.093266739736706
31
0
0
LINE
5
227
100
AcDbEntity
8
0
100
AcDbLine
10
173
20
30
30
0
11
169.49999999999989
21
29.999999999999968
31
0
0
LINE
5
228
100
AcDbEntity
8
0
100
AcDbLine
10
176.5
20
36.062177826491066
30
0
11
174.74999999999989
21
39.093266739736634
31
0
0
LINE
5
229
100
AcDbEntity
8
0
100
AcDbLine
10
173.93782217350892
20
33.499999999999986
30
0
11
170.90673326026322
21
35.249999999999957
31
0
0
LINE
5
230
100
AcDbEntity
8
0
100
AcDbLine
10
180
20
30
30
0
11
181.172940326385
21
32.031592239545247
31
0
0
LINE
5
231
100
AcDbEntity
8
0
100
AcDbLine
10
187.00000000000003
20
29.999999999999993
30
0
11
190.50000000000011
21
30.000000000000039
31
0
0
LINE
5
232
100
AcDbEntity
8
0
100
AcDbLine
10
186.06217782649108
20
33.5
30
0
11
189.09326673973666
21
35.250000000000085
31
0
0
LINE
5
233
100
AcDbEntity
8
0
100
AcDbLine
10
180
20
36.999999999999993
30
0
11
180
21
40.500000000000085
31
0
0
LINE
5
234
100
AcDbEntity
8
0
100
AcDbLine
10
176.5
20
23.937822173508934
30
0
11
174.75000000000034
21
20.906733260263227
31
0
0
LINE
5
235
100
AcDbEntity
8
0
100
AcDbLine
10
186.06217782649105
20
26.500000000000004
30
0
11
189.09326673973675
21
24.749999999999964
31
0
0
LINE
5
236
100
AcDbEntity
8
0
100
AcDbLine
10
173.93782217350895
20
26.500000000000004
30
0
11
170.90673326026334
21
24.749999999999844
31
0
0
CIRCLE
5
237
100
AcDbEntity
8
0
100
AcDbCircle
10
180
20
30
30
0
40
3.5000000000000004
0
LINE
5
238
100
AcDbEntity
8
0
100
AcDbLine
10
183.49999999999997
20
36.062177826491066
30
0
11
185.25
21
39.093266739736706
31
0
0
LINE
5
239
100
AcDbEntity
8
0
100
AcDbLine
10
193
20
30
30
0
11
189.49999999999989
21
29.999999999999968
31
0
0
LINE
5
240
100
AcDbEntity
8
0
100
AcDbLine
10
196.5
20
36.062177826491066
30
0
11
194.74999999999989
21
39.093266739736634
31
0
0
LINE
5
241
100
AcDbEntity
8
0
100
AcDbLine
10
193.93782217350892
20
33.499999999999986
30
0
11
190.90673326026322
21
35.249999999999957
31
0
0
LINE
5
242
100
AcDbEntity
8
0
100
AcDbLine
10
200
20
30
30
0
11
201.172940326385
21
32.031592239545247
31
0
0
LINE
5
243
100
AcDbEntity
8
0
100
AcDbLine
10
207.00000000000003
20
29.999999999999993
30
0
11
210.50000000000011
21
30.000000000000039
31
0
0
LINE
5
244
100
AcDbEntity
8
0
100
AcDbLine
10
206.06217782649108
20
33.5
30
0
11
209.09326673973666
21
35.250000000000085
31
0
0
LINE
5
245
100
AcDbEntity
8
0
100
AcDbLine
10
200
20
36.999999999999993
30
0
11
200
21
40.500000000000085
31
0
0
LINE
5
246
100
AcDbEntity
8
0
100
AcDbLine
10
196.5
20
23.937822173508934
30
0
11
194.75000000000034
21
20.906733260263227
31
0
0
LINE
5
247
100
AcDbEntity
8
0
100
AcDbLine
10
206.06217782649105
20
26.500000000000004
30
0
11
209.09326673973675
21
24.749999999999964
31
0
0
LINE
5
248
100
AcDbEntity
8
0
100
AcDbLine
10
193.93782217350895
20
26.500000000000004
30
0
11
190.90673326026334
21
24.749999999999844
31
0
0
CIRCLE
5
249
100
AcDbEntity
8
0
100
AcDbCircle
10
200
20
30
30
0
40
3.5000000000000004
0
LINE
5
250
100
AcDbEntity
8
0
100
AcDbLine
10
203.49999999999997
20
36.062177826491066
30
0
11
205.25
21
39.093266739736706
31
0
0
LINE
5
251
100
AcDbEntity
8
0
100
AcDbLine
10
213
20
30
30
0
11
209.49999999999989
21
29.999999999999968
31
0
0
LINE
5
252
100
AcDbEntity
8
0
100
AcDbLine
10
216.5
20
36.062177826491066
30
0
11
214.74999999999989
21
39.093266739736634
31
0
0
LINE
5
253
100
AcDbEntity
8
0
100
AcDbLine
10
213.93782217350892
20
33.499999999999986
30
0
11
210.90673326026322
21
35.249999999999957
31
0
0
LINE
5
254
100
AcDbEntity
8
0
100
AcDbLine
10
220
20
30
30
0
11
221.172940326385
21
32.031592239545247
31
0
0
LINE
5
255
100
AcDbEntity
8
0
100
AcDbLine
10
227.00000000000003
20
29.999999999999993
30
0
11
230.50000000000011
21
30.000000000000039
31
0
0
LINE
5
256
100
AcDbEntity
8
0
100
AcDbLine
10
226.06217782649108
20
33.5
30
0
11
229.09326673973666
21
35.250000000000085
31
0
0
LINE
5
257
100
AcDbEntity
8
0
100
AcDbLine
10
220
20
36.999999999999993
30
0
11
220
21
40.500000000000085
31
0
0
LINE
5
258
100
AcDbEntity
8
0
100
AcDbLine
10
216.5
20
23.937822173508934
30
0
11
214.75000000000034
21
20.906733260263227
31
0
0
LINE
5
259
100
AcDbEntity
8
0
100
AcDbLine
10
226.06217782649105
20
26.500000000000004
30
0
11
229.09326673973675
21
24.749999999999964
31
0
0
LINE
5
260
100
AcDbEntity
8
0
100
AcDbLine
10
213.93782217350895
20
26.500000000000004
30
0
11
210.90673326026334
21
24.749999999999844
31
0
0
CIRCLE
5
261
100
AcDbEntity
8
0
100
AcDbCircle
10
220
20
30
30
0
40
3.5000000000000004
0
LINE
5
262
100
AcDbEntity
8
0
100
AcDbLine
10
223.49999999999997
20
36.062177826491066
30
0
11
225.25
21
39.093266739736706
31
0
0
LINE
5
263
100
AcDbEntity
8
0
100
AcDbLine
10
73
20
60
30
0
11
69.499999999999886
21
59.999999999999964
31
0
0
LINE
5
264
100
AcDbEntity
8
0
100
AcDbLine
10
76.5
20
66.062177826491066
30
0
11
74.749999999999886
21
69.093266739736634
31
0
0
LINE
5
265
100
AcDbEntity
8
0
100
AcDbLine
10
73.937822173508934
20
63.499999999999986
30
0
11
70.906733260263252
21
65.249999999999943
31
0
0
LINE
5
266
100
AcDbEntity
8
0
100
AcDbLine
10
80
20
60
30
0
11
81.172940326385003
21
62.031592239545255
31
0
0
LINE
5
267
100
AcDbEntity
8
0
100
AcDbLine
10
87.000000000000014
20
59.999999999999993
30
0
11
90.500000000000114
21
60.000000000000036
31
0
0
LINE
5
268
100
AcDbEntity
8
0
100
AcDbLine
10
86.06217782649108
20
63.5
30
0
11
89.093266739736677
21
65.250000000000085
31
0
0
LINE
5
269
100
AcDbEntity
8
0
100
AcDbLine
10
80
20
67
30
0
11
79.999999999999986
21
70.500000000000085
31
0
0
LINE
5
270
100
AcDbEntity
8
0
100
AcDbLine
10
76.5
20
53.937822173508934
30
0
11
74.750000000000313
21
50.906733260263231
31
0
0
LINE
5
271
100
AcDbEntity
8
0
100
AcDbLine
10
86.062177826491052
20
56.5
30
0
11
89.093266739736734
21
54.749999999999957
31
0
0
LINE
5
272
100
AcDbEntity
8
0
100
AcDbLine
10
73.937822173508948
20
56.5
30
0
11
70.906733260263337
21
54.749999999999844
31
0
0
CIRCLE
5
273
100
AcDbEntity
8
0
100
AcDbCircle
10
80
20
60
30
0
40
3.5000000000000004
0
LINE
5
274
100
AcDbEntity
8
0
100
AcDbLine
10
83.499999999999972
20
66.062177826491066
30
0
11
85.25
21
69.093266739736706
31
0
0
LINE
5
275
100
AcDbEntity
8
0
100
AcDbLine
10
93
20
60
30
0
11
89.499999999999886
21
59.999999999999964
31
0
0
LINE
5
276
100
AcDbEntity
8
0
100
AcDbLine
10
96.5
20
66.062177826491066
30
0
11
94.749999999999886
21
69.093266739736634
31
0
0
LINE
5
277
100
AcDbEntity
8
0
100
AcDbLine
10
93.93782217350892
20
63.499999999999986
30
0
11
90.906733260263266
21
65.249999999999943
31
0
0
LINE
5
278
100
AcDbEntity
8
0
100
AcDbLine
10
100
20
60
30
0
11
101.172940326385
21
62.031592239545255
31
0
0
LINE
5
279
100
AcDbEntity
8
0
100
AcDbLine
10
107.00000000000001
20
59.999999999999993
30
0
11
110.50000000000011
21
60.000000000000036
31
0
0
LINE
5
280
100
AcDbEntity
8
0
100
AcDbLine
10
106.06217782649108
20
63.5
30
0
11
109.09326673973668
21
65.250000000000085
31
0
0
LINE
5
281
100
AcDbEntity
8
0
100
AcDbLine
10
100
20
67
30
0
11
99.999999999999986
21
70.500000000000085
31
0
0
LINE
5
282
100
AcDbEntity
8
0
100
AcDbLine
10
96.5
20
53.937822173508934
30
0
11
94.750000000000341
21
50.906733260263231
31
0
0
LINE
5
283
100
AcDbEntity
8
0
100
AcDbLine
10
106.06217782649105
20
56.5
30
0
11
109.09326673973673
21
54.749999999999957
31
0
0
LINE
5
284
100
AcDbEntity
8
0
100
AcDbLine
10
93.937822173508948
20
56.5
30
0
11
90.906733260263337
21
54.749999999999844
31
0
0
CIRCLE
5
285
100
AcDbEntity
8
0
100
AcDbCircle
10
100
20
60
30
0
40
3.5000000000000004
0
LINE
5
286
100
AcDbEntity
8
0
100
AcDbLine
10
103.49999999999997
20
66.062177826491066
30
0
11
105.25
21
69.093266739736706
31
0
0
LINE
5
287
100
AcDbEntity
8
0
100
AcDbLine
10
113
20
60
30
0
11
109.49999999999989
21
59.999999999999964
31
0
0
LINE
5
288
100
AcDbEntity
8
0
100
AcDbLine
10
116.5
20
66.062177826491066
30
0
11
114.74999999999989
21
69.093266739736634
31
0
0
LINE
5
289
100
AcDbEntity
8
0
100
AcDbLine
10
113.93782217350892
20
63.499999999999986
30
0
11
110.90673326026327
21
65.249999999999943
31
0
0
LINE
5
290
100
AcDbEntity
8
0
100
AcDbLine
10
120
20
60
30
0
11
121.172940326385
21
62.031592239545255
31
0
0
LINE
5
291
100
AcDbEntity
8
0
100
AcDbLine
10
127.00000000000001
20
59.999999999999993
30
0
11
130.50000000000011
21
60.000000000000036
31
0
0
LINE
5
292
100
AcDbEntity
8
0
100
AcDbLine
10
126.06217782649108
20
63.5
30
0
11
129.09326673973669
21
65.250000000000085
31
0
0
LINE
5
293
100
AcDbEntity
8
0
100
AcDbLine
10
120
20
67
30
0
11
119.99999999999999
21
70.500000000000085
31
0
0
LINE
5
294
100
AcDbEntity
8
0
100
AcDbLine
10
116.5
20
53.937822173508934
30
0
11
114.75000000000034
21
50.906733260263231
31
0
0
LINE
5
295
100
AcDbEntity
8
0
100
AcDbLine
10
126.06217782649105
20
56.5
30
0
11
129.09326673973675
21
54.749999999999957
31
0
0
LINE
5
296
100
AcDbEntity
8
0
100
AcDbLine
10
113.93782217350895
20
56.5
30
0
11
110.90673326026334
21
54.749999999999844
31
0
0
CIRCLE
5
297
100
AcDbEntity
8
0
100
AcDbCircle
10
120
20
60
30
0
40
3.5000000000000004
0
LINE
5
298
100
AcDbEntity
8
0
100
AcDbLine
10
123.49999999999997
20
66.062177826491066
30
0
11
125.25
21
69.093266739736706
31
0
0
LINE
5
299
100
AcDbEntity
8
0
100
AcDbLine
10
133
20
60
30
0
11
129.49999999999989
21
59.999999999999964
31
0
0
LINE
5
300
100
AcDbEntity
8
0
100
AcDbLine
10
136.5
20
66.062177826491066
30
0
11
134.74999999999989
21
69.093266739736634
31
0
0
LINE
5
301
100
AcDbEntity
8
0
100
AcDbLine
10
133.93782217350892
20
63.499999999999986
30
0
11
130.90673326026325
21
65.249999999999943
31
0
0
LINE
5
302
100
AcDbEntity
8
0
100
AcDbLine
10
140
20
60
30
0
11
141.172940326385
21
62.031592239545255
31
0
0
LINE
5
303
100
AcDbEntity
8
0
100
AcDbLine
10
147
20
59.999999999999993
30
0
11
150.50000000000011
21
60.000000000000036
31
0
0
LINE
5
304
100
AcDbEntity
8
0
100
AcDbLine
10
146.06217782649108
20
63.5
30
0
11
149.09326673973669
21
65.250000000000085
31
0
0
LINE
5
305
100
AcDbEntity
8
0
100
AcDbLine
10
140
20
67
30
0
11
139.99999999999997
21
70.500000000000085
31
0
0
LINE
5
306
100
AcDbEntity
8
0
100
AcDbLine
10
136.5
20
53.937822173508934
30
0
11
134.75000000000034
21
50.906733260263231
31
0
0
LINE
5
307
100
AcDbEntity
8
0
100
AcDbLine
10
146.06217782649105
20
56.5
30
0
11
149.09326673973675
21
54.749999999999957
31
0
0
LINE
5
308
100
AcDbEntity
8
0
100
AcDbLine
10
133.93782217350895
20
56.5
30
0
11
130.90673326026334
21
54.749999999999844
31
0
0
CIRCLE
5
309
100
AcDbEntity
8
0
100
AcDbCircle
10
140
20
60
30
0
40
3.5000000000000004
0
LINE
5
310
100
AcDbEntity
8
0
100
AcDbLine
10
143.49999999999997
20
66.062177826491066
30
0
11
145.25
21
69.093266739736706
31
0
0
LINE
5
311
100
AcDbEntity
8
0
100
AcDbLine
10
153
20
60
30
0
11
149.49999999999989
21
59.999999999999964
31
0
0
LINE
5
312
100
AcDbEntity
8
0
100
AcDbLine
10
156.5
20
66.062177826491066
30
0
11
154.74999999999989
21
69.093266739736634
31
0
0
LINE
5
313
100
AcDbEntity
8
0
100
AcDbLine
10
153.93782217350892
20
63.499999999999986
30
0
11
150.90673326026325
21
65.249999999999943
31
0
0
LINE
5
314
100
AcDbEntity
8
0
100
AcDbLine
10
160
20
60
30
0
11
161.172940326385
21
62.031592239545255
31
0
0
LINE
5
315
100
AcDbEntity
8
0
100
AcDbLine
10
167.00000000000003
20
59.999999999999993
30
0
11
170.50000000000011
21
60.000000000000036
31
0
0
LINE
5
316
100
AcDbEntity
8
0
100
AcDbLine
10
166.06217782649108
20
63.5
30
0
11
169.09326673973666
21
65.250000000000085
31
0
0
LINE
5
317
100
AcDbEntity
8
0
100
AcDbLine
10
160
20
67
30
0
11
159.99999999999997
21
70.500000000000085
31
0
0
LINE
5
318
100
AcDbEntity
8
0
100
AcDbLine
10
156.5
20
53.937822173508934
30
0
11
154.75000000000034
21
50.906733260263231
31
0
0
LINE
5
319
100
AcDbEntity
8
0
100
AcDbLine
10
166.06217782649105
20
56.5
30
0
11
169.09326673973675
21
54.749999999999957
31
0
0
LINE
5
320
100
AcDbEntity
8
0
100
AcDbLine
10
153.93782217350895
20
56.5
30
0
11
150.90673326026334
21
54.749999999999844
31
0
0
CIRCLE
5
321
100
AcDbEntity
8
0
100
AcDbCircle
10
160
20
60
30
0
40
3.5000000000000004
0
LINE
5
322
100
AcDbEntity
8
0
100
AcDbLine
10
163.49999999999997
20
66.062177826491066
30
0
11
165.25
21
69.093266739736706
31
0
0
LINE
5
323
100
AcDbEntity
8
0
100
AcDbLine
10
173
20
60
30
0
11
169.49999999999989
21
59.999999999999964
31
0
0
LINE
5
324
100
AcDbEntity
8
0
100
AcDbLine
10
176.5
20
66.062177826491066
30
0
11
174.74999999999989
21
69.093266739736634
31
0
0
LINE
5
325
100
AcDbEntity
8
0
100
AcDbLine
10
173.93782217350892
20
63.499999999999986
30
0
11
170.90673326026322
21
65.249999999999943
31
0
0
LINE
5
326
100
AcDbEntity
8
0
100
AcDbLine
10
180
20
60
30
0
11
181.172940326385
21
62.031592239545255
31
0
0
LINE
5
327
100
AcDbEntity
8
0
100
AcDbLine
10
187.00000000000003
20
59.999999999999993
30
0
11
190.50000000000011
21
60.000000000000036
31
0
0
LINE
5
328
100
AcDbEntity
8
0
100
AcDbLine
10
186.06217782649108
20
63.5
30
0
11
189.09326673973666
21
65.250000000000085
31
0
0
LINE
5
329
100
AcDbEntity
8
0
100
AcDbLine
10
180
20
67
30
0
11
180
21
70.500000000000085
31
0
0
LINE
5
330
100
AcDbEntity
8
0
100
AcDbLine
10
176.5
20
53.937822173508934
30
0
11
174.75000000000034
21
50.906733260263231
31
0
0
LINE
5
331
100
AcDbEntity
8
0
100
AcDbLine
10
186.06217782649105
20
56.5
30
0
11
189.09326673973675
21
54.749999999999957
31
0
0
LINE
5
332
100
AcDbEntity
8
0
100
AcDbLine
10
173.93782217350895
20
56.5
30
0
11
170.90673326026334
21
54.749999999999844
31
0
0
CIRCLE
5
333
100
AcDbEntity
8
0
100
AcDbCircle
10
180
20
60
30
0
40
3.5000000000000004
0
LINE
5
334
100
AcDbEntity
8
0
100
AcDbLine
10
183.49999999999997
20
66.062177826491066
30
0
11
185.25
21
69.093266739736706
31
0
0
LINE
5
335
100
AcDbEntity
8
0
100
AcDbLine
10
193
20
60
30
0
11
189.49999999999989
21
59.999999999999964
31
0
0
LINE
5
336
100
AcDbEntity
8
0
100
AcDbLine
10
196.5
20
66.062177826491066
30
0
11
194.74999999999989
21
69.093266739736634
31
0
0
LINE
5
337
100
AcDbEntity
8
0
100
AcDbLine
10
193.93782217350892
20
63.499999999999986
30
0
11
190.90673326026322
21
65.249999999999943
31
0
0
LINE
5
338
100
AcDbEntity
8
0
100
AcDbLine
10
200
20
60
30
0
11
201.172940326385
21
62.031592239545255
31
0
0
LINE
5
339
100
AcDbEntity
8
0
100
AcDbLine
10
207.00000000000003
20
59.999999999999993
30
0
11
210.50000000000011
21
60.000000000000036
31
0
0
LINE
5
340
100
AcDbEntity
8
0
100
AcDbLine
10
206.06217782649108
20
63.5
30
0
11
209.09326673973666
21
65.250000000000085
31
0
0
LINE
5
341
100
AcDbEntity
8
0
100
AcDbLine
10
200
20
67
30
0
11
200
21
70.500000000000085
31
0
0
LINE
5
342
100
AcDbEntity
8
0
100
AcDbLine
10
196.5
20
53.937822173508934
30
0
11
194.75000000000034
21
50.906733260263231
31
0
0
LINE
5
343
100
AcDbEntity
8
0
100
AcDbLine
10
206.06217782649105
20
56.5
30
0
11
209.09326673973675
21
54.749999999999957
31
0
0
LINE
5
344
100
AcDbEntity
8
0
100
AcDbLine
10
193.93782217350895
20
56.5
30
0
11
190.90673326026334
21
54.749999999999844
31
0
0
CIRCLE
5
345
100
AcDbEntity
8
0
100
AcDbCircle
10
200
20
60
30
0
40
3.5000000000000004
0
LINE
5
346
100
AcDbEntity
8
0
100
AcDbLine
10
203.49999999999997
20
66.062177826491066
30
0
11
205.25
21
69.093266739736706
31
0
0
LINE
5
347
100
AcDbEntity
8
0
100
AcDbLine
10
213
20
60
30
0
11
209.49999999999989
21
59.999999999999964
31
0
0
LINE
5
348
100
AcDbEntity
8
0
100
AcDbLine
10
216.5
20
66.062177826491066
30
0
11
214.74999999999989
21
69.093266739736634
31
0
0
LINE
5
349
100
AcDbEntity
8
0
100
AcDbLine
10
213.93782217350892
20
63.499999999999986
30
0
11
210.90673326026322
21
65.249999999999943
31
0
0
LINE
5
350
100
AcDbEntity
8
0
100
AcDbLine
10
220
20
60
30
0
11
221.172940326385
21
62.031592239545255
31
0
0
LINE
5
351
100
AcDbEntity
8
0
100
AcDbLine
10
227.00000000000003
20
59.999999999999993
30
0
11
230.50000000000011
21
60.000000000000036
31
0
0
LINE
5
352
100
AcDbEntity
8
0
100
AcDbLine
10
226.06217782649108
20
63.5
30
0
11
229.09326673973666
21
65.250000000000085
31
0
0
LINE
5
353
100
AcDbEntity
8
0
100
AcDbLine
10
220
20
67
30
0
11
220
21
70.500000000000085
31
0
0
LINE
5
354
100
AcDbEntity
8
0
100
AcDbLine
10
216.5
20
53.937822173508934
30
0
11
214.75000000000034
21
50.906733260263231
31
0
0
LINE
5
355
100
AcDbEntity
8
0
100
AcDbLine
10
226.06217782649105
20
56.5
30
0
11
229.09326673973675
21
54.749999999999957
31
0
0
LINE
5
356
100
AcDbEntity
8
0
100
AcDbLine
10
213.93782217350895
20
56.5
30
0
11
210.90673326026334
21
54.749999999999844
31
0
0
CIRCLE
5
357
100
AcDbEntity
8
0
100
AcDbCircle
10
220
20
60
30
0
40
3.5000000000000004
0
LINE
5
358
100
AcDbEntity
8
0
100
AcDbLine
10
223.49999999999997
20
66.062177826491066
30
0
11
225.25
21
69.093266739736706
31
0
0
LINE
5
359
100
AcDbEntity
8
0
100
AcDbLine
10
83.499999999999972
20
23.937822173508945
30
0
11
85.250000000000114
21
20.906733260263294
31
0
0
LINE
5
360
100
AcDbEntity
8
0
100
AcDbLine
10
103.49999999999997
20
23.937822173508945
30
0
11
105.25000000000011
21
20.906733260263294
31
0
0
LINE
5
361
100
AcDbEntity
8
0
100
AcDbLine
10
123.49999999999997
20
23.937822173508945
30
0
11
125.25000000000011
21
20.906733260263294
31
0
0
LINE
5
362
100
AcDbEntity
8
0
100
AcDbLine
10
143.49999999999997
20
23.937822173508945
30
0
11
145.25000000000011
21
20.906733260263294
31
0
0
LINE
5
363
100
AcDbEntity
8
0
100
AcDbLine
10
163.49999999999997
20
23.937822173508945
30
0
11
165.25000000000009
21
20.906733260263294
31
0
0
LINE
5
364
100
AcDbEntity
8
0
100
AcDbLine
10
183.49999999999997
20
23.937822173508945
30
0
11
185.25000000000009
21
20.906733260263294
31
0
0
LINE
5
365
100
AcDbEntity
8
0
100
AcDbLine
10
203.49999999999997
20
23.937822173508945
30
0
11
205.25000000000009
21
20.906733260263294
31
0
0
LINE
5
366
100
AcDbEntity
8
0
100
AcDbLine
10
223.49999999999997
20
23.937822173508945
30
0
11
225.25000000000009
21
20.906733260263294
31
0
0
LINE
5
367
100
AcDbEntity
8
0
100
AcDbLine
10
83.499999999999972
20
53.937822173508948
30
0
11
85.250000000000114
21
50.906733260263294
31
0
0
LINE
5
368
100
AcDbEntity
8
0
100
AcDbLine
10
103.49999999999997
20
53.937822173508948
30
0
11
105.25000000000011
21
50.906733260263294
31
0
0
LINE
5
369
100
AcDbEntity
8
0
100
AcDbLine
10
123.49999999999997
20
53.937822173508948
30
0
11
125.25000000000011
21
50.906733260263294
31
0
0
LINE
5
370
100
AcDbEntity
8
0
100
AcDbLine
10
143.49999999999997
20
53.937822173508948
30
0
11
145.25000000000011
21
50.906733260263294
31
0
0
LINE
5
371
100
AcDbEntity
8
0
100
AcDbLine
10
163.49999999999997
20
53.937822173508948
30
0
11
165.25000000000009
21
50.906733260263294
31
0
0
LINE
5
372
100
AcDbEntity
8
0
100
AcDbLine
10
183.49999999999997
20
53.937822173508948
30
0
11
185.25000000000009
21
50.906733260263294
31
0
0
LINE
5
373
100
AcDbEntity
8
0
100
AcDbLine
10
203.49999999999997
20
53.937822173508948
30
0
11
205.25000000000009
21
50.906733260263294
31
0
0
LINE
5
374
100
AcDbEntity
8
0
100
AcDbLine
10
223.49999999999997
20
53.937822173508948
30
0
11
225.25000000000009
21
50.906733260263294
31
0
0
CIRCLE
5
375
100
AcDbEntity
8
0
100
AcDbCircle
10
388.08217156947592
20
46.567926949014733
30
0
40
0.5
0
CIRCLE
5
376
100
AcDbEntity
8
0
100
AcDbCircle
10
388.00000000000006
20
44.999999999999922
30
0
40
0.5
0
CIRCLE
5
377
100
AcDbEntity
8
0
100
AcDbCircle
10
388.08217156947592
20
43.432073050985124
30
0
40
0.5
0
CIRCLE
5
378
100
AcDbEntity
8
0
100
AcDbCircle
10
388.32778598899296
20
41.881324637733542
30
0
40
0.5
0
CIRCLE
5
379
100
AcDbEntity
8
0
100
AcDbCircle
10
388.73415225557272
20
40.364745084375713
30
0
40
0.5
0
CIRCLE
5
380
100
AcDbEntity
8
0
100
AcDbCircle
10
389.29681813536104
20
38.898950353862929
30
0
40
0.5
0
CIRCLE
5
381
100
AcDbEntity
8
0
100
AcDbCircle
10
390.00961894323348
20
37.499999999999936
30
0
40
0.5
0
CIRCLE
5
382
100
AcDbEntity
8
0
100
AcDbCircle
10
390.8647450843759
20
36.183221215612832
30
0
40
0.5
0
CIRCLE
5
383
100
AcDbEntity
8
0
100
AcDbCircle
10
391.85282761783918
20
34.963040904617067
30
0
40
0.5
0
CIRCLE
5
384
100
AcDbEntity
8
0
100
AcDbCircle
10
392.96304090461723
20
33.85282761783904
30
0
40
0.5
0
CIRCLE
5
385
100
AcDbEntity
8
0
100
AcDbCircle
10
394.183221215613
20
32.864745084375727
30
0
40
0.5
0
CIRCLE
5
386
100
AcDbEntity
8
0
100
AcDbCircle
10
395.50000000000011
20
32.009618943233377
30
0
40
0.5
0
LINE
5
387
100
AcDbEntity
8
0
100
AcDbLine
10
403.00000000000006
20
45
30
0
11
443.3559096894827
21
-24.898485967844799
31
0
0
LINE
5
388
100
AcDbEntity
8
0
100
AcDbLine
10
410.50000000000011
20
32.009618943233448
30
0
11
422.09830718759605
21
11.920761612525901
31
0
0
LWPOLYLINE
5
389
100
AcDbEntity
8
0
100
AcDbPolyline
90
4
70
1
43
0.0
10
10.500000000000004
20
79.499999999999957
10
6.5000000000000018
20
79.499999999999957
42
-0.99999999999999989
10
6.5000000000000018
20
85.499999999999972
10
10.500000000000004
20
85.499999999999972
42
-0.99999999999999989
0
LINE
5
390
100
AcDbEntity
8
0
100
AcDbLine
10
6.5000000000000018
20
82.499999999999972
30
0
11
10.500000000000004
21
82.499999999999972
31
0
0
LWPOLYLINE
5
391
100
AcDbEntity
8
0
100
AcDbPolyline
90
4
70
1
43
0.0
10
10.5
20
3.5000000000000004
10
6.5000000000000018
20
3.5000000000000009
42
-0.99999999999999989
10
6.5000000000000018
20
9.5000000000000018
10
10.5
20
9.5000000000000018
42
-0.99999999999999989
0
LINE
5
392
100
AcDbEntity
8
0
100
AcDbLine
10
6.5000000000000018
20
6.5000000000000018
30
0
11
10.5
21
6.5000000000000018
31
0
0
LWPOLYLINE
5
393
100
AcDbEntity
8
0
100
AcDbPolyline
90
4
70
1
43
0.0
10
472.50000000000006
20
85.499999999999972
10
476.50000000000006
20
85.499999999999972
42
-0.99999999999999989
10
476.50000000000006
20
79.499999999999957
10
472.50000000000006
20
79.499999999999957
42
-0.99999999999999989
0
LINE
5
394
100
AcDbEntity
8
0
100
AcDbLine
10
476.50000000000006
20
82.499999999999972
30
0
11
472.50000000000006
21
82.499999999999972
31
0
0
LWPOLYLINE
5
395
100
AcDbEntity
8
0
100
AcDbPolyline
90
4
70
1
43
0.0
10
472.50000000000006
20
9.5000000000000018
10
476.50000000000006
20
9.5000000000000018
42
-0.99999999999999989
10
476.50000000000006
20
3.5000000000000004
10
472.50000000000006
20
3.5000000000000009
42
-0.99999999999999989
0
LINE
5
396
100
AcDbEntity
8
0
100
AcDbLine
10
476.50000000000006
20
6.5000000000000018
30
0
11
472.50000000000006
21
6.5000000000000018
31
0
0
LINE
5
397
100
AcDbEntity
8
0
100
AcDbLine
10
250
20
30
30
0
11
250.70710826686394
21
31.224747444660252
31
0
0
LINE
5
398
100
AcDbEntity
8
0
100
AcDbLine
10
244.75
20
20.90673326026339
30
0
11
246.5
21
23.937822173508927
31
0
0
LINE
5
399
100
AcDbEntity
8
0
100
AcDbLine
10
240.90673326026342
20
24.749999999999979
30
0
11
243.93782217350892
21
26.500000000000004
31
0
0
LINE
5
400
100
AcDbEntity
8
0
100
AcDbLine
10
239.5
20
30
30
0
11
242.99999999999997
21
30.000000000000036
31
0
0
LINE
5
401
100
AcDbEntity
8
0
100
AcDbLine
10
240.90673326026342
20
35.249999999999986
30
0
11
243.93782217350895
21
33.500000000000014
31
0
0
LINE
5
402
100
AcDbEntity
8
0
100
AcDbLine
10
244.75
20
39.093266739736592
30
0
11
246.50000000000003
21
36.062177826491073
31
0
0
LINE
5
403
100
AcDbEntity
8
0
100
AcDbLine
10
250
20
40.499999999999986
30
0
11
249.99999999999997
21
37.000000000000014
31
0
0
LINE
5
404
100
AcDbEntity
8
0
100
AcDbLine
10
255.25
20
39.093266739736606
30
0
11
253.5
21
36.062177826491073
31
0
0
LINE
5
405
100
AcDbEntity
8
0
100
AcDbLine
10
259.09326673973658
20
35.25
30
0
11
256.06217782649105
21
33.5
31
0
0
LINE
5
406
100
AcDbEntity
8
0
100
AcDbLine
10
260.50000000000006
20
30
30
0
11
257.00000000000006
21
30
31
0
0
LINE
5
407
100
AcDbEntity
8
0
100
AcDbLine
10
259.09326673973658
20
24.749999999999979
30
0
11
256.06217782649105
21
26.499999999999986
31
0
0
LINE
5
408
100
AcDbEntity
8
0
100
AcDbLine
10
255.25
20
20.906733260263373
30
0
11
253.5
21
23.937822173508891
31
0
0
LINE
5
409
100
AcDbEntity
8
0
100
AcDbLine
10
264.75
20
20.90673326026339
30
0
11
266.5
21
23.937822173508927
31
0
0
LINE
5
410
100
AcDbEntity
8
0
100
AcDbLine
10
260.90673326026342
20
24.749999999999979
30
0
11
263.93782217350895
21
26.500000000000004
31
0
0
LINE
5
411
100
AcDbEntity
8
0
100
AcDbLine
10
259.5
20
30
30
0
11
263
21
30.000000000000036
31
0
0
LINE
5
412
100
AcDbEntity
8
0
100
AcDbLine
10
260.90673326026342
20
35.249999999999986
30
0
11
263.93782217350895
21
33.500000000000014
31
0
0
LINE
5
413
100
AcDbEntity
8
0
100
AcDbLine
10
264.75
20
39.093266739736592
30
0
11
266.5
21
36.062177826491073
31
0
0
LINE
5
414
100
AcDbEntity
8
0
100
AcDbLine
10
270
20
40.499999999999986
30
0
11
269.99999999999994
21
37.000000000000014
31
0
0
LINE
5
415
100
AcDbEntity
8
0
100
AcDbLine
10
275.25
20
39.093266739736606
30
0
11
273.5
21
36.062177826491073
31
0
0
LINE
5
416
100
AcDbEntity
8
0
100
AcDbLine
10
279.09326673973658
20
35.25
30
0
11
276.06217782649105
21
33.5
31
0
0
LINE
5
417
100
AcDbEntity
8
0
100
AcDbLine
10
280.50000000000006
20
30
30
0
11
277.00000000000006
21
30
31
0
0
LINE
5
418
100
AcDbEntity
8
0
100
AcDbLine
10
279.09326673973658
20
24.749999999999979
30
0
11
276.06217782649105
21
26.499999999999986
31
0
0
LINE
5
419
100
AcDbEntity
8
0
100
AcDbLine
10
275.25
20
20.906733260263373
30
0
11
273.5
21
23.937822173508891
31
0
0
CIRCLE
5
420
100
AcDbEntity
8
0
100
AcDbCircle
10
270
20
30
30
0
40
3.5000000000000004
0
LINE
5
421
100
AcDbEntity
8
0
100
AcDbLine
10
284.75
20
20.90673326026339
30
0
11
286.5
21
23.937822173508927
31
0
0
LINE
5
422
100
AcDbEntity
8
0
100
AcDbLine
10
280.90673326026342
20
24.749999999999979
30
0
11
283.93782217350895
21
26.500000000000004
31
0
0
LINE
5
423
100
AcDbEntity
8
0
100
AcDbLine
10
279.5
20
30
30
0
11
283
21
30.000000000000036
31
0
0
LINE
5
424
100
AcDbEntity
8
0
100
AcDbLine
10
280.90673326026342
20
35.249999999999986
30
0
11
283.93782217350895
21
33.500000000000014
31
0
0
LINE
5
425
100
AcDbEntity
8
0
100
AcDbLine
10
284.75
20
39.093266739736592
30
0
11
286.5
21
36.062177826491073
31
0
0
LINE
5
426
100
AcDbEntity
8
0
100
AcDbLine
10
290
20
40.499999999999986
30
0
11
289.99999999999994
21
37.000000000000014
31
0
0
LINE
5
427
100
AcDbEntity
8
0
100
AcDbLine
10
295.25
20
39.093266739736606
30
0
11
293.5
21
36.062177826491073
31
0
0
LINE
5
428
100
AcDbEntity
8
0
100
AcDbLine
10
299.09326673973658
20
35.25
30
0
11
296.06217782649105
21
33.5
31
0
0
LINE
5
429
100
AcDbEntity
8
0
100
AcDbLine
10
300.50000000000006
20
30
30
0
11
297.00000000000006
21
30
31
0
0
LINE
5
430
100
AcDbEntity
8
0
100
AcDbLine
10
299.09326673973658
20
24.749999999999979
30
0
11
296.06217782649105
21
26.499999999999986
31
0
0
LINE
5
431
100
AcDbEntity
8
0
100
AcDbLine
10
295.25
20
20.906733260263373
30
0
11
293.5
21
23.937822173508891
31
0
0
CIRCLE
5
432
100
AcDbEntity
8
0
100
AcDbCircle
10
290
20
30
30
0
40
3.5000000000000004
0
LINE
5
433
100
AcDbEntity
8
0
100
AcDbLine
10
244.75
20
50.906733260263394
30
0
11
246.5
21
53.937822173508927
31
0
0
LINE
5
434
100
AcDbEntity
8
0
100
AcDbLine
10
240.90673326026342
20
54.749999999999979
30
0
11
243.93782217350892
21
56.5
31
0
0
LINE
5
435
100
AcDbEntity
8
0
100
AcDbLine
10
239.5
20
60
30
0
11
242.99999999999997
21
60.000000000000036
31
0
0
LINE
5
436
100
AcDbEntity
8
0
100
AcDbLine
10
240.90673326026342
20
65.249999999999986
30
0
11
243.93782217350895
21
63.500000000000014
31
0
0
LINE
5
437
100
AcDbEntity
8
0
100
AcDbLine
10
244.75
20
69.093266739736592
30
0
11
246.50000000000003
21
66.06217782649108
31
0
0
LINE
5
438
100
AcDbEntity
8
0
100
AcDbLine
10
250
20
70.499999999999986
30
0
11
249.99999999999997
21
67.000000000000014
31
0
0
LINE
5
439
100
AcDbEntity
8
0
100
AcDbLine
10
255.25
20
69.093266739736606
30
0
11
253.5
21
66.06217782649108
31
0
0
LINE
5
440
100
AcDbEntity
8
0
100
AcDbLine
10
259.09326673973658
20
65.25
30
0
11
256.06217782649105
21
63.5
31
0
0
LINE
5
441
100
AcDbEntity
8
0
100
AcDbLine
10
260.50000000000006
20
60
30
0
11
257.00000000000006
21
60
31
0
0
LINE
5
442
100
AcDbEntity
8
0
100
AcDbLine
10
259.09326673973658
20
54.749999999999979
30
0
11
256.06217782649105
21
56.499999999999986
31
0
0
LINE
5
443
100
AcDbEntity
8
0
100
AcDbLine
10
255.25
20
50.906733260263373
30
0
11
253.5
21
53.937822173508891
31
0
0
CIRCLE
5
444
100
AcDbEntity
8
0
100
AcDbCircle
10
250
20
60
30
0
40
3.5000000000000004
0
LINE
5
445
100
AcDbEntity
8
0
100
AcDbLine
10
264.75
20
50.906733260263394
30
0
11
266.5
21
53.937822173508927
31
0
0
LINE
5
446
100
AcDbEntity
8
0
100
AcDbLine
10
260.90673326026342
20
54.749999999999979
30
0
11
263.93782217350895
21
56.5
31
0
0
LINE
5
447
100
AcDbEntity
8
0
100
AcDbLine
10
259.5
20
60
30
0
11
263
21
60.000000000000036
31
0
0
LINE
5
448
100
AcDbEntity
8
0
100
AcDbLine
10
260.90673326026342
20
65.249999999999986
30
0
11
263.93782217350895
21
63.500000000000014
31
0
0
LINE
5
449
100
AcDbEntity
8
0
100
AcDbLine
10
264.75
20
69.093266739736592
30
0
11
266.5
21
66.06217782649108
31
0
0
LINE
5
450
100
AcDbEntity
8
0
100
AcDbLine
10
270
20
70.499999999999986
30
0
11
269.99999999999994
21
67.000000000000014
31
0
0
LINE
5
451
100
AcDbEntity
8
0
100
AcDbLine
10
275.25
20
69.093266739736606
30
0
11
273.5
21
66.06217782649108
31
0
0
LINE
5
452
100
AcDbEntity
8
0
100
AcDbLine
10
279.09326673973658
20
65.25
30
0
11
276.06217782649105
21
63.5
31
0
0
LINE
5
453
100
AcDbEntity
8
0
100
AcDbLine
10
280.50000000000006
20
60
30
0
11
277.00000000000006
21
60
31
0
0
LINE
5
454
100
AcDbEntity
8
0
100
AcDbLine
10
279.09326673973658
20
54.749999999999979
30
0
11
276.06217782649105
21
56.499999999999986
31
0
0
LINE
5
455
100
AcDbEntity
8
0
100
AcDbLine
10
275.25
20
50.906733260263373
30
0
11
273.5
21
53.937822173508891
31
0
0
CIRCLE
5
456
100
AcDbEntity
8
0
100
AcDbCircle
10
270
20
60
30
0
40
3.5000000000000004
0
LINE
5
457
100
AcDbEntity
8
0
100
AcDbLine
10
284.75
20
50.906733260263394
30
0
11
286.5
21
53.937822173508927
31
0
0
LINE
5
458
100
AcDbEntity
8
0
100
AcDbLine
10
280.90673326026342
20
54.749999999999979
30
0
11
283.93782217350895
21
56.5
31
0
0
LINE
5
459
100
AcDbEntity
8
0
100
AcDbLine
10
279.5
20
60
30
0
11
283
21
60.000000000000036
31
0
0
LINE
5
460
100
AcDbEntity
8
0
100
AcDbLine
10
280.90673326026342
20
65.249999999999986
30
0
11
283.93782217350895
21
63.500000000000014
31
0
0
LINE
5
461
100
AcDbEntity
8
0
100
AcDbLine
10
284.75
20
69.093266739736592
30
0
11
286.5
21
66.06217782649108
31
0
0
LINE
5
462
100
AcDbEntity
8
0
100
AcDbLine
10
290
20
70.499999999999986
30
0
11
289.99999999999994
21
67.000000000000014
31
0
0
LINE
5
463
100
AcDbEntity
8
0
100
AcDbLine
10
295.25
20
69.093266739736606
30
0
11
293.5
21
66.06217782649108
31
0
0
LINE
5
464
100
AcDbEntity
8
0
100
AcDbLine
10
299.09326673973658
20
65.25
30
0
11
296.06217782649105
21
63.5
31
0
0
LINE
5
465
100
AcDbEntity
8
0
100
AcDbLine
10
300.50000000000006
20
60
30
0
11
297.00000000000006
21
60
31
0
0
LINE
5
466
100
AcDbEntity
8
0
100
AcDbLine
10
299.09326673973658
20
54.749999999999979
30
0
11
296.06217782649105
21
56.499999999999986
31
0
0
LINE
5
467
100
AcDbEntity
8
0
100
AcDbLine
10
295.25
20
50.906733260263373
30
0
11
293.5
21
53.937822173508891
31
0
0
CIRCLE
5
468
100
AcDbEntity
8
0
100
AcDbCircle
10
290
20
60
30
0
40
3.5000000000000004
0
CIRCLE
5
469
100
AcDbEntity
8
0
100
AcDbCircle
10
32.5
20
76.499999999999972
30
0
40
3.0000000000000004
0
CIRCLE
5
470
100
AcDbEntity
8
0
100
AcDbCircle
10
32.5
20
12.5
30
0
40
2.9999999999999982
0
CIRCLE
5
471
100
AcDbEntity
8
0
100
AcDbCircle
10
450.50000000000006
20
76.499999999999972
30
0
40
2.9999999999999796
0
CIRCLE
5
472
100
AcDbEntity
8
0
100
AcDbCircle
10
450.50000000000006
20
12.5
30
0
40
3.0000000000000124
0
ENDSEC
0
SECTION
2
OBJECTS
0
DICTIONARY
5
C
100
AcDbDictionary
3
ACAD_GROUP
350
D
3
ACAD_MLINESTYLE
350
17
0
DICTIONARY
5
D
100
AcDbDictionary
0
DICTIONARY
5
1A
330
C
100
AcDbDictionary
0
DICTIONARY
5
17
100
AcDbDictionary
0
ENDSEC
0
EOF
